ISO-10303-21;
HEADER;
FILE_DESCRIPTION (( 'STEP AP203' ),
    '1' );
FILE_NAME ('BK7-LPBSC-10-980.STEP',
    '2020-12-22T03:10:58',
    ( '' ),
    ( '' ),
    'SwSTEP 2.0',
    'SolidWorks 2020',
    '' );
FILE_SCHEMA (( 'CONFIG_CONTROL_DESIGN' ));
ENDSEC;

DATA;
#1 = PLANE ( 'NONE',  #127 ) ;
#2 =( GEOMETRIC_REPRESENTATION_CONTEXT ( 3 ) GLOBAL_UNCERTAINTY_ASSIGNED_CONTEXT ( ( #208 ) ) GLOBAL_UNIT_ASSIGNED_CONTEXT ( ( #191, #238, #242 ) ) REPRESENTATION_CONTEXT ( 'NONE', 'WORKASPACE' ) );
#3 = DIRECTION ( 'NONE',  ( 1.000000000000000000, -4.857225732735059864E-17, 0.000000000000000000 ) ) ;
#4 = EDGE_LOOP ( 'NONE', ( #284, #8, #63 ) ) ;
#5 = MANIFOLD_SOLID_BREP ( 'Í¹Ì¨-À', #6 ) ;
#6 = CLOSED_SHELL ( 'NONE', ( #280, #120, #268, #264, #151 ) ) ;
#7 = APPROVAL_PERSON_ORGANIZATION ( #62, #155, #140 ) ;
#8 = ORIENTED_EDGE ( 'NONE', *, *, #68, .F. ) ;
#9 = PERSON_AND_ORGANIZATION ( #245, #211 ) ;
#10 = CC_DESIGN_PERSON_AND_ORGANIZATION_ASSIGNMENT ( #189, #293, ( #47 ) ) ;
#11 = ORIENTED_EDGE ( 'NONE', *, *, #321, .T. ) ;
#12 = EDGE_CURVE ( 'NONE', #255, #103, #217, .T. ) ;
#13 = DIRECTION ( 'NONE',  ( -0.7071067811865475727, -0.7071067811865474617, 0.000000000000000000 ) ) ;
#14 = APPROVAL_ROLE ( '' ) ;
#15 = VECTOR ( 'NONE', #100, 1000.000000000000000 ) ;
#16 = SECURITY_CLASSIFICATION ( '', '', #158 ) ;
#17 = CARTESIAN_POINT ( 'NONE',  ( -4.999999999999999112, 5.000000000000001776, -5.000000000000000000 ) ) ;
#18 = CARTESIAN_POINT ( 'NONE',  ( -5.000000000000000888, -4.999999999999998224, -5.000000000000000000 ) ) ;
#19 = DIRECTION ( 'NONE',  ( 1.734723475976807094E-16, 1.000000000000000000, -0.000000000000000000 ) ) ;
#20 = CARTESIAN_POINT ( 'NONE',  ( 5.000000000000002665, 5.000000000000000000, 5.000000000000000000 ) ) ;
#21 = CC_DESIGN_PERSON_AND_ORGANIZATION_ASSIGNMENT ( #229, #315, ( #303 ) ) ;
#22 = AXIS2_PLACEMENT_3D ( 'NONE', #50, #124, #57 ) ;
#23 = CARTESIAN_POINT ( 'NONE',  ( 5.000000000000002665, 5.000000000000000000, 5.000000000000000000 ) ) ;
#24 = DIRECTION ( 'NONE',  ( -1.734723475976807094E-16, -1.000000000000000000, 0.000000000000000000 ) ) ;
#25 = FACE_OUTER_BOUND ( 'NONE', #310, .T. ) ;
#26 = DIRECTION ( 'NONE',  ( -0.000000000000000000, 0.000000000000000000, 1.000000000000000000 ) ) ;
#27 = EDGE_CURVE ( 'NONE', #109, #178, #139, .T. ) ;
#28 = CARTESIAN_POINT ( 'NONE',  ( -4.999999999999999112, 5.000000000000001776, 5.000000000000000000 ) ) ;
#29 = LOCAL_TIME ( 11, 10, 58.00000000000000000, #287 ) ;
#30 = LINE ( 'NONE', #176, #172 ) ;
#31 = ADVANCED_FACE ( 'NONE', ( #237 ), #210, .F. ) ;
#32 = ORIENTED_EDGE ( 'NONE', *, *, #105, .T. ) ;
#33 = APPROVAL ( #235, 'UNSPECIFIED' ) ;
#34 = SHAPE_DEFINITION_REPRESENTATION ( #233, #278 ) ;
#35 = CC_DESIGN_APPROVAL ( #155, ( #16 ) ) ;
#36 = ORIENTED_EDGE ( 'NONE', *, *, #321, .F. ) ;
#37 = DATE_AND_TIME ( #212, #147 ) ;
#38 = EDGE_LOOP ( 'NONE', ( #251, #11, #106 ) ) ;
#39 = APPROVAL_DATE_TIME ( #254, #155 ) ;
#40 = ADVANCED_FACE ( 'NONE', ( #192 ), #234, .F. ) ;
#41 = CLOSED_SHELL ( 'NONE', ( #31, #43, #304, #149, #40 ) ) ;
#42 = DIRECTION ( 'NONE',  ( -0.000000000000000000, 0.000000000000000000, -1.000000000000000000 ) ) ;
#43 = ADVANCED_FACE ( 'NONE', ( #262 ), #220, .F. ) ;
#44 = APPROVAL_ROLE ( '' ) ;
#45 = ORIENTED_EDGE ( 'NONE', *, *, #83, .T. ) ;
#46 = PERSON_AND_ORGANIZATION_ROLE ( 'creator' ) ;
#47 = PRODUCT_DEFINITION_FORMATION_WITH_SPECIFIED_SOURCE ( 'ANY', '', #303, .NOT_KNOWN. ) ;
#48 = DIRECTION ( 'NONE',  ( -0.7071067811865475727, -0.7071067811865474617, 0.000000000000000000 ) ) ;
#49 = DIRECTION ( 'NONE',  ( 0.7071067811865475727, 0.7071067811865474617, 0.000000000000000000 ) ) ;
#50 = CARTESIAN_POINT ( 'NONE',  ( -4.999999999999999112, -5.000000000000000000, 5.000000000000000000 ) ) ;
#51 = EDGE_LOOP ( 'NONE', ( #308, #84, #283, #201 ) ) ;
#52 = VECTOR ( 'NONE', #297, 1000.000000000000000 ) ;
#53 = DIRECTION ( 'NONE',  ( 0.000000000000000000, -0.000000000000000000, 1.000000000000000000 ) ) ;
#54 = EDGE_CURVE ( 'NONE', #286, #302, #188, .T. ) ;
#55 = DIRECTION ( 'NONE',  ( -0.000000000000000000, 0.000000000000000000, 1.000000000000000000 ) ) ;
#56 = LINE ( 'NONE', #153, #114 ) ;
#57 = DIRECTION ( 'NONE',  ( 0.000000000000000000, -0.000000000000000000, 1.000000000000000000 ) ) ;
#58 = EDGE_LOOP ( 'NONE', ( #96, #200, #312, #135 ) ) ;
#59 = ORIENTED_EDGE ( 'NONE', *, *, #128, .T. ) ;
#60 = CALENDAR_DATE ( 2020, 22, 12 ) ;
#61 = ORIENTED_EDGE ( 'NONE', *, *, #232, .F. ) ;
#62 = PERSON_AND_ORGANIZATION ( #245, #211 ) ;
#63 = ORIENTED_EDGE ( 'NONE', *, *, #128, .F. ) ;
#64 = DATE_AND_TIME ( #182, #91 ) ;
#65 = VECTOR ( 'NONE', #13, 1000.000000000000000 ) ;
#66 = VECTOR ( 'NONE', #226, 1000.000000000000000 ) ;
#67 = VERTEX_POINT ( 'NONE', #17 ) ;
#68 = EDGE_CURVE ( 'NONE', #157, #87, #292, .T. ) ;
#69 = LINE ( 'NONE', #294, #15 ) ;
#70 = PERSON_AND_ORGANIZATION_ROLE ( 'design_supplier' ) ;
#71 = VERTEX_POINT ( 'NONE', #213 ) ;
#72 = DIRECTION ( 'NONE',  ( 2.220446049250313081E-16, 1.000000000000000000, 0.000000000000000000 ) ) ;
#73 = VECTOR ( 'NONE', #274, 1000.000000000000000 ) ;
#74 = LINE ( 'NONE', #20, #227 ) ;
#75 = DIRECTION ( 'NONE',  ( 1.000000000000000000, -4.857225732735059864E-17, 0.000000000000000000 ) ) ;
#76 = PRODUCT_RELATED_PRODUCT_CATEGORY ( 'detail', '', ( #303 ) ) ;
#77 = FACE_OUTER_BOUND ( 'NONE', #4, .T. ) ;
#78 = DIRECTION ( 'NONE',  ( -1.000000000000000000, 4.857225732735059864E-17, 0.000000000000000000 ) ) ;
#79 = CARTESIAN_POINT ( 'NONE',  ( 0.000000000000000000, 0.000000000000000000, 5.000000000000000000 ) ) ;
#80 = CC_DESIGN_APPROVAL ( #33, ( #47 ) ) ;
#81 = FACE_OUTER_BOUND ( 'NONE', #179, .T. ) ;
#82 = CARTESIAN_POINT ( 'NONE',  ( 5.000000000000000888, -5.000000000000000000, 5.000000000000000000 ) ) ;
#83 = EDGE_CURVE ( 'NONE', #103, #71, #69, .T. ) ;
#84 = ORIENTED_EDGE ( 'NONE', *, *, #105, .F. ) ;
#85 = VERTEX_POINT ( 'NONE', #316 ) ;
#86 = CARTESIAN_POINT ( 'NONE',  ( 0.000000000000000000, 0.000000000000000000, 0.000000000000000000 ) ) ;
#87 = VERTEX_POINT ( 'NONE', #164 ) ;
#88 = COORDINATED_UNIVERSAL_TIME_OFFSET ( 8, 0, .AHEAD. ) ;
#89 = VECTOR ( 'NONE', #3, 1000.000000000000000 ) ;
#90 = APPROVAL ( #187, 'UNSPECIFIED' ) ;
#91 = LOCAL_TIME ( 11, 10, 58.00000000000000000, #88 ) ;
#92 = DIRECTION ( 'NONE',  ( -0.7071067811865474617, 0.7071067811865475727, 0.000000000000000000 ) ) ;
#93 = CARTESIAN_POINT ( 'NONE',  ( 5.000000000000002665, 5.000000000000000000, 5.000000000000000000 ) ) ;
#94 = DIRECTION ( 'NONE',  ( 1.000000000000000000, 0.000000000000000000, 0.000000000000000000 ) ) ;
#95 = EDGE_CURVE ( 'NONE', #85, #302, #265, .T. ) ;
#96 = ORIENTED_EDGE ( 'NONE', *, *, #193, .T. ) ;
#97 = CARTESIAN_POINT ( 'NONE',  ( 5.000000000000002665, 5.000000000000000000, 5.000000000000000000 ) ) ;
#98 = DIRECTION ( 'NONE',  ( 1.000000000000000000, -2.220446049250313081E-16, 0.000000000000000000 ) ) ;
#99 = DIRECTION ( 'NONE',  ( -0.7071067811865475727, -0.7071067811865474617, 0.000000000000000000 ) ) ;
#100 = DIRECTION ( 'NONE',  ( 1.000000000000000000, 0.000000000000000000, 0.000000000000000000 ) ) ;
#101 = PLANE ( 'NONE',  #203 ) ;
#102 = CARTESIAN_POINT ( 'NONE',  ( 5.000000000000000888, 5.000000000000001776, -5.000000000000000000 ) ) ;
#103 = VERTEX_POINT ( 'NONE', #137 ) ;
#104 = DIRECTION ( 'NONE',  ( -0.000000000000000000, 0.000000000000000000, -1.000000000000000000 ) ) ;
#105 = EDGE_CURVE ( 'NONE', #255, #178, #239, .T. ) ;
#106 = ORIENTED_EDGE ( 'NONE', *, *, #136, .T. ) ;
#107 = CALENDAR_DATE ( 2020, 22, 12 ) ;
#108 = APPROVAL_PERSON_ORGANIZATION ( #311, #90, #44 ) ;
#109 = VERTEX_POINT ( 'NONE', #166 ) ;
#110 = APPROVAL_DATE_TIME ( #37, #90 ) ;
#111 = EDGE_CURVE ( 'NONE', #87, #85, #267, .T. ) ;
#112 = AXIS2_PLACEMENT_3D ( 'NONE', #86, #257, #163 ) ;
#113 = CARTESIAN_POINT ( 'NONE',  ( 5.000000000000002665, 5.000000000000000000, -5.000000000000000000 ) ) ;
#114 = VECTOR ( 'NONE', #174, 1000.000000000000000 ) ;
#115 = COORDINATED_UNIVERSAL_TIME_OFFSET ( 8, 0, .AHEAD. ) ;
#116 = CARTESIAN_POINT ( 'NONE',  ( 5.000000000000000888, 5.000000000000001776, -5.000000000000000000 ) ) ;
#117 = EDGE_CURVE ( 'NONE', #71, #255, #74, .T. ) ;
#118 = CARTESIAN_POINT ( 'NONE',  ( 5.000000000000000888, 5.000000000000001776, 5.000000000000000000 ) ) ;
#119 = CARTESIAN_POINT ( 'NONE',  ( -5.000000000000000888, -4.999999999999998224, 5.000000000000000000 ) ) ;
#120 = ADVANCED_FACE ( 'NONE', ( #141 ), #215, .F. ) ;
#121 = VECTOR ( 'NONE', #42, 1000.000000000000000 ) ;
#122 = CARTESIAN_POINT ( 'NONE',  ( 5.000000000000000888, 5.000000000000001776, 5.000000000000000000 ) ) ;
#123 = LINE ( 'NONE', #219, #307 ) ;
#124 = DIRECTION ( 'NONE',  ( 0.000000000000000000, 1.000000000000000000, 0.000000000000000000 ) ) ;
#125 = CARTESIAN_POINT ( 'NONE',  ( -4.999999999999999112, -5.000000000000000000, -5.000000000000000000 ) ) ;
#126 = LINE ( 'NONE', #224, #66 ) ;
#127 = AXIS2_PLACEMENT_3D ( 'NONE', #298, #144, #78 ) ;
#128 = EDGE_CURVE ( 'NONE', #85, #157, #30, .T. ) ;
#129 = PLANE ( 'NONE',  #202 ) ;
#130 = ORIENTED_EDGE ( 'NONE', *, *, #185, .T. ) ;
#131 = ORIENTED_EDGE ( 'NONE', *, *, #209, .T. ) ;
#132 = VECTOR ( 'NONE', #282, 1000.000000000000000 ) ;
#133 = ORIENTED_EDGE ( 'NONE', *, *, #27, .F. ) ;
#134 = DATE_AND_TIME ( #309, #29 ) ;
#135 = ORIENTED_EDGE ( 'NONE', *, *, #232, .T. ) ;
#136 = EDGE_CURVE ( 'NONE', #67, #286, #301, .T. ) ;
#137 = CARTESIAN_POINT ( 'NONE',  ( -4.999999999999999112, -5.000000000000000000, 5.000000000000000000 ) ) ;
#138 = DATE_AND_TIME ( #107, #295 ) ;
#139 = LINE ( 'NONE', #113, #318 ) ;
#140 = APPROVAL_ROLE ( '' ) ;
#141 = FACE_OUTER_BOUND ( 'NONE', #58, .T. ) ;
#142 = FACE_OUTER_BOUND ( 'NONE', #305, .T. ) ;
#143 = CARTESIAN_POINT ( 'NONE',  ( 0.000000000000000000, 0.000000000000000000, -5.000000000000000000 ) ) ;
#144 = DIRECTION ( 'NONE',  ( -4.857225732735059864E-17, -1.000000000000000000, 0.000000000000000000 ) ) ;
#145 = EDGE_LOOP ( 'NONE', ( #36, #183, #59, #131 ) ) ;
#146 = CC_DESIGN_DATE_AND_TIME_ASSIGNMENT ( #138, #290, ( #261 ) ) ;
#147 = LOCAL_TIME ( 11, 10, 58.00000000000000000, #115 ) ;
#148 = CARTESIAN_POINT ( 'NONE',  ( 5.000000000000002665, 5.000000000000000000, 5.000000000000000000 ) ) ;
#149 = ADVANCED_FACE ( 'NONE', ( #77 ), #129, .T. ) ;
#150 = LINE ( 'NONE', #28, #300 ) ;
#151 = ADVANCED_FACE ( 'NONE', ( #81 ), #248, .F. ) ;
#152 = ORIENTED_EDGE ( 'NONE', *, *, #136, .F. ) ;
#153 = CARTESIAN_POINT ( 'NONE',  ( -4.999999999999999112, -5.000000000000000000, -5.000000000000000000 ) ) ;
#154 = VECTOR ( 'NONE', #72, 1000.000000000000000 ) ;
#155 = APPROVAL ( #165, 'UNSPECIFIED' ) ;
#156 = ORIENTED_EDGE ( 'NONE', *, *, #54, .F. ) ;
#157 = VERTEX_POINT ( 'NONE', #175 ) ;
#158 = SECURITY_CLASSIFICATION_LEVEL ( 'unclassified' ) ;
#159 = ORIENTED_EDGE ( 'NONE', *, *, #185, .F. ) ;
#160 = VERTEX_POINT ( 'NONE', #125 ) ;
#161 = PERSON_AND_ORGANIZATION ( #245, #211 ) ;
#162 = DIRECTION ( 'NONE',  ( 0.7071067811865475727, 0.7071067811865474617, 0.000000000000000000 ) ) ;
#163 = DIRECTION ( 'NONE',  ( 1.000000000000000000, 0.000000000000000000, 0.000000000000000000 ) ) ;
#164 = CARTESIAN_POINT ( 'NONE',  ( 5.000000000000000888, 5.000000000000001776, 5.000000000000000000 ) ) ;
#165 = APPROVAL_STATUS ( 'not_yet_approved' ) ;
#166 = CARTESIAN_POINT ( 'NONE',  ( 5.000000000000000888, -5.000000000000000000, -5.000000000000000000 ) ) ;
#167 = CARTESIAN_POINT ( 'NONE',  ( 5.000000000000000888, 5.000000000000001776, 5.000000000000000000 ) ) ;
#168 = CARTESIAN_POINT ( 'NONE',  ( -5.000000000000000888, -4.999999999999998224, -5.000000000000000000 ) ) ;
#169 = ORIENTED_EDGE ( 'NONE', *, *, #68, .T. ) ;
#170 = FACE_OUTER_BOUND ( 'NONE', #51, .T. ) ;
#171 = LINE ( 'NONE', #82, #73 ) ;
#172 = VECTOR ( 'NONE', #223, 1000.000000000000000 ) ;
#173 = APPROVAL_PERSON_ORGANIZATION ( #204, #33, #14 ) ;
#174 = DIRECTION ( 'NONE',  ( 1.000000000000000000, 0.000000000000000000, 0.000000000000000000 ) ) ;
#175 = CARTESIAN_POINT ( 'NONE',  ( -4.999999999999999112, 5.000000000000001776, 5.000000000000000000 ) ) ;
#176 = CARTESIAN_POINT ( 'NONE',  ( -5.000000000000000888, -4.999999999999998224, 5.000000000000000000 ) ) ;
#177 = CC_DESIGN_PERSON_AND_ORGANIZATION_ASSIGNMENT ( #161, #258, ( #16 ) ) ;
#178 = VERTEX_POINT ( 'NONE', #279 ) ;
#179 = EDGE_LOOP ( 'NONE', ( #228, #133, #288 ) ) ;
#180 = COORDINATED_UNIVERSAL_TIME_OFFSET ( 8, 0, .AHEAD. ) ;
#181 = ORIENTED_EDGE ( 'NONE', *, *, #117, .T. ) ;
#182 = CALENDAR_DATE ( 2020, 22, 12 ) ;
#183 = ORIENTED_EDGE ( 'NONE', *, *, #95, .F. ) ;
#184 = PERSON_AND_ORGANIZATION ( #245, #211 ) ;
#185 = EDGE_CURVE ( 'NONE', #87, #286, #222, .T. ) ;
#186 = AXIS2_PLACEMENT_3D ( 'NONE', #119, #98, #241 ) ;
#187 = APPROVAL_STATUS ( 'not_yet_approved' ) ;
#188 = LINE ( 'NONE', #116, #52 ) ;
#189 = PERSON_AND_ORGANIZATION ( #245, #211 ) ;
#190 = DIRECTION ( 'NONE',  ( -0.000000000000000000, -0.000000000000000000, -1.000000000000000000 ) ) ;
#191 =( LENGTH_UNIT ( ) NAMED_UNIT ( * ) SI_UNIT ( .MILLI., .METRE. ) );
#192 = FACE_OUTER_BOUND ( 'NONE', #38, .T. ) ;
#193 = EDGE_CURVE ( 'NONE', #160, #109, #56, .T. ) ;
#194 = CARTESIAN_POINT ( 'NONE',  ( -5.000000000000000888, -4.999999999999998224, 5.000000000000000000 ) ) ;
#195 = DIRECTION ( 'NONE',  ( 0.7071067811865474617, -0.7071067811865475727, 0.000000000000000000 ) ) ;
#196 = VECTOR ( 'NONE', #190, 1000.000000000000000 ) ;
#197 = CARTESIAN_POINT ( 'NONE',  ( 0.000000000000000000, 0.000000000000000000, 5.000000000000000000 ) ) ;
#198 = ORIENTED_EDGE ( 'NONE', *, *, #12, .F. ) ;
#199 = CARTESIAN_POINT ( 'NONE',  ( 0.000000000000000000, 0.000000000000000000, -5.000000000000000000 ) ) ;
#200 = ORIENTED_EDGE ( 'NONE', *, *, #240, .F. ) ;
#201 = ORIENTED_EDGE ( 'NONE', *, *, #240, .T. ) ;
#202 = AXIS2_PLACEMENT_3D ( 'NONE', #197, #53, #299 ) ;
#203 = AXIS2_PLACEMENT_3D ( 'NONE', #79, #55, #94 ) ;
#204 = PERSON_AND_ORGANIZATION ( #245, #211 ) ;
#205 = CC_DESIGN_PERSON_AND_ORGANIZATION_ASSIGNMENT ( #184, #46, ( #261 ) ) ;
#206 = EDGE_LOOP ( 'NONE', ( #156, #159, #243, #225 ) ) ;
#207 = APPLICATION_CONTEXT ( 'configuration controlled 3d designs of mechanical parts and assemblies' ) ;
#208 = UNCERTAINTY_MEASURE_WITH_UNIT (LENGTH_MEASURE( 1.000000000000000082E-05 ), #191, 'distance_accuracy_value', 'NONE');
#209 = EDGE_CURVE ( 'NONE', #157, #67, #150, .T. ) ;
#210 = PLANE ( 'NONE',  #260 ) ;
#211 = ORGANIZATION ( 'UNSPECIFIED', 'UNSPECIFIED', '' ) ;
#212 = CALENDAR_DATE ( 2020, 22, 12 ) ;
#213 = CARTESIAN_POINT ( 'NONE',  ( 5.000000000000000888, -5.000000000000000000, 5.000000000000000000 ) ) ;
#214 = APPLICATION_PROTOCOL_DEFINITION ( 'international standard', 'config_control_design', 1994, #207 ) ;
#215 = PLANE ( 'NONE',  #22 ) ;
#216 = PLANE ( 'NONE',  #250 ) ;
#217 = LINE ( 'NONE', #23, #65 ) ;
#218 = VECTOR ( 'NONE', #75, 1000.000000000000000 ) ;
#219 = CARTESIAN_POINT ( 'NONE',  ( 5.000000000000002665, 5.000000000000000000, -5.000000000000000000 ) ) ;
#220 = PLANE ( 'NONE',  #186 ) ;
#221 = MANIFOLD_SOLID_BREP ( '¾µÏ', #41 ) ;
#222 = LINE ( 'NONE', #249, #132 ) ;
#223 = DIRECTION ( 'NONE',  ( 2.220446049250313081E-16, 1.000000000000000000, 0.000000000000000000 ) ) ;
#224 = CARTESIAN_POINT ( 'NONE',  ( -4.999999999999999112, -5.000000000000000000, 5.000000000000000000 ) ) ;
#225 = ORIENTED_EDGE ( 'NONE', *, *, #95, .T. ) ;
#226 = DIRECTION ( 'NONE',  ( -0.000000000000000000, -0.000000000000000000, -1.000000000000000000 ) ) ;
#227 = VECTOR ( 'NONE', #19, 1000.000000000000000 ) ;
#228 = ORIENTED_EDGE ( 'NONE', *, *, #273, .F. ) ;
#229 = PERSON_AND_ORGANIZATION ( #245, #211 ) ;
#230 = EDGE_LOOP ( 'NONE', ( #252, #61, #198, #32 ) ) ;
#231 = DATE_TIME_ROLE ( 'classification_date' ) ;
#232 = EDGE_CURVE ( 'NONE', #103, #160, #126, .T. ) ;
#233 = PRODUCT_DEFINITION_SHAPE ( 'NONE', 'NONE',  #261 ) ;
#234 = PLANE ( 'NONE',  #244 ) ;
#235 = APPROVAL_STATUS ( 'not_yet_approved' ) ;
#236 = VECTOR ( 'NONE', #48, 1000.000000000000000 ) ;
#237 = FACE_OUTER_BOUND ( 'NONE', #206, .T. ) ;
#238 =( NAMED_UNIT ( * ) PLANE_ANGLE_UNIT ( ) SI_UNIT ( $, .RADIAN. ) );
#239 = LINE ( 'NONE', #93, #196 ) ;
#240 = EDGE_CURVE ( 'NONE', #71, #109, #171, .T. ) ;
#241 = DIRECTION ( 'NONE',  ( 0.000000000000000000, 0.000000000000000000, 1.000000000000000000 ) ) ;
#242 =( NAMED_UNIT ( * ) SI_UNIT ( $, .STERADIAN. ) SOLID_ANGLE_UNIT ( ) );
#243 = ORIENTED_EDGE ( 'NONE', *, *, #111, .T. ) ;
#244 = AXIS2_PLACEMENT_3D ( 'NONE', #143, #319, #320 ) ;
#245 = PERSON ( 'UNSPECIFIED', 'UNSPECIFIED', 'UNSPECIFIED', ('UNSPECIFIED'), ('UNSPECIFIED'), ('UNSPECIFIED') ) ;
#246 = CARTESIAN_POINT ( 'NONE',  ( 5.000000000000002665, 5.000000000000000000, 5.000000000000000000 ) ) ;
#247 = DIRECTION ( 'NONE',  ( 1.000000000000000000, 0.000000000000000000, 0.000000000000000000 ) ) ;
#248 = PLANE ( 'NONE',  #275 ) ;
#249 = CARTESIAN_POINT ( 'NONE',  ( 5.000000000000000888, 5.000000000000001776, 5.000000000000000000 ) ) ;
#250 = AXIS2_PLACEMENT_3D ( 'NONE', #97, #195, #49 ) ;
#251 = ORIENTED_EDGE ( 'NONE', *, *, #54, .T. ) ;
#252 = ORIENTED_EDGE ( 'NONE', *, *, #273, .T. ) ;
#253 = ORIENTED_EDGE ( 'NONE', *, *, #209, .F. ) ;
#254 = DATE_AND_TIME ( #60, #314 ) ;
#255 = VERTEX_POINT ( 'NONE', #148 ) ;
#256 = CC_DESIGN_SECURITY_CLASSIFICATION ( #16, ( #47 ) ) ;
#257 = DIRECTION ( 'NONE',  ( 0.000000000000000000, 0.000000000000000000, 1.000000000000000000 ) ) ;
#258 = PERSON_AND_ORGANIZATION_ROLE ( 'classification_officer' ) ;
#259 = APPLICATION_CONTEXT ( 'configuration controlled 3d designs of mechanical parts and assemblies' ) ;
#260 = AXIS2_PLACEMENT_3D ( 'NONE', #122, #92, #162 ) ;
#261 = PRODUCT_DEFINITION ( 'UNKNOWN', '', #47, #291 ) ;
#262 = FACE_OUTER_BOUND ( 'NONE', #145, .T. ) ;
#263 = APPLICATION_PROTOCOL_DEFINITION ( 'international standard', 'config_control_design', 1994, #259 ) ;
#264 = ADVANCED_FACE ( 'NONE', ( #25 ), #101, .T. ) ;
#265 = LINE ( 'NONE', #194, #121 ) ;
#266 = APPROVAL_DATE_TIME ( #64, #33 ) ;
#267 = LINE ( 'NONE', #118, #236 ) ;
#268 = ADVANCED_FACE ( 'NONE', ( #170 ), #269, .F. ) ;
#269 = PLANE ( 'NONE',  #289 ) ;
#270 = DIRECTION ( 'NONE',  ( 1.734723475976807094E-16, 1.000000000000000000, -0.000000000000000000 ) ) ;
#271 = LINE ( 'NONE', #18, #154 ) ;
#272 = DIRECTION ( 'NONE',  ( -1.000000000000000000, 1.734723475976807094E-16, 0.000000000000000000 ) ) ;
#273 = EDGE_CURVE ( 'NONE', #178, #160, #123, .T. ) ;
#274 = DIRECTION ( 'NONE',  ( -0.000000000000000000, -0.000000000000000000, -1.000000000000000000 ) ) ;
#275 = AXIS2_PLACEMENT_3D ( 'NONE', #199, #26, #247 ) ;
#276 = CC_DESIGN_APPROVAL ( #90, ( #261 ) ) ;
#277 = CC_DESIGN_PERSON_AND_ORGANIZATION_ASSIGNMENT ( #9, #70, ( #47 ) ) ;
#278 = ADVANCED_BREP_SHAPE_REPRESENTATION ( 'BK7-LPBSC-10-980', ( #5, #221, #112 ), #2 ) ;
#279 = CARTESIAN_POINT ( 'NONE',  ( 5.000000000000002665, 5.000000000000000000, -5.000000000000000000 ) ) ;
#280 = ADVANCED_FACE ( 'NONE', ( #317 ), #216, .F. ) ;
#281 = ORIENTED_EDGE ( 'NONE', *, *, #12, .T. ) ;
#282 = DIRECTION ( 'NONE',  ( -0.000000000000000000, 0.000000000000000000, -1.000000000000000000 ) ) ;
#283 = ORIENTED_EDGE ( 'NONE', *, *, #117, .F. ) ;
#284 = ORIENTED_EDGE ( 'NONE', *, *, #111, .F. ) ;
#285 = COORDINATED_UNIVERSAL_TIME_OFFSET ( 8, 0, .AHEAD. ) ;
#286 = VERTEX_POINT ( 'NONE', #296 ) ;
#287 = COORDINATED_UNIVERSAL_TIME_OFFSET ( 8, 0, .AHEAD. ) ;
#288 = ORIENTED_EDGE ( 'NONE', *, *, #193, .F. ) ;
#289 = AXIS2_PLACEMENT_3D ( 'NONE', #246, #272, #24 ) ;
#290 = DATE_TIME_ROLE ( 'creation_date' ) ;
#291 = DESIGN_CONTEXT ( 'detailed design', #259, 'design' ) ;
#292 = LINE ( 'NONE', #167, #218 ) ;
#293 = PERSON_AND_ORGANIZATION_ROLE ( 'creator' ) ;
#294 = CARTESIAN_POINT ( 'NONE',  ( -4.999999999999999112, -5.000000000000000000, 5.000000000000000000 ) ) ;
#295 = LOCAL_TIME ( 11, 10, 58.00000000000000000, #180 ) ;
#296 = CARTESIAN_POINT ( 'NONE',  ( 5.000000000000000888, 5.000000000000001776, -5.000000000000000000 ) ) ;
#297 = DIRECTION ( 'NONE',  ( -0.7071067811865475727, -0.7071067811865474617, 0.000000000000000000 ) ) ;
#298 = CARTESIAN_POINT ( 'NONE',  ( 5.000000000000000888, 5.000000000000001776, 5.000000000000000000 ) ) ;
#299 = DIRECTION ( 'NONE',  ( 2.220446049250313081E-16, 1.000000000000000000, 0.000000000000000000 ) ) ;
#300 = VECTOR ( 'NONE', #104, 1000.000000000000000 ) ;
#301 = LINE ( 'NONE', #102, #89 ) ;
#302 = VERTEX_POINT ( 'NONE', #168 ) ;
#303 = PRODUCT ( 'BK7-LPBSC-10-980', 'BK7-LPBSC-10-980', '', ( #313 ) ) ;
#304 = ADVANCED_FACE ( 'NONE', ( #142 ), #1, .F. ) ;
#305 = EDGE_LOOP ( 'NONE', ( #152, #253, #169, #130 ) ) ;
#306 = CC_DESIGN_DATE_AND_TIME_ASSIGNMENT ( #134, #231, ( #16 ) ) ;
#307 = VECTOR ( 'NONE', #99, 1000.000000000000000 ) ;
#308 = ORIENTED_EDGE ( 'NONE', *, *, #27, .T. ) ;
#309 = CALENDAR_DATE ( 2020, 22, 12 ) ;
#310 = EDGE_LOOP ( 'NONE', ( #281, #45, #181 ) ) ;
#311 = PERSON_AND_ORGANIZATION ( #245, #211 ) ;
#312 = ORIENTED_EDGE ( 'NONE', *, *, #83, .F. ) ;
#313 = MECHANICAL_CONTEXT ( 'NONE', #207, 'mechanical' ) ;
#314 = LOCAL_TIME ( 11, 10, 58.00000000000000000, #285 ) ;
#315 = PERSON_AND_ORGANIZATION_ROLE ( 'design_owner' ) ;
#316 = CARTESIAN_POINT ( 'NONE',  ( -5.000000000000000888, -4.999999999999998224, 5.000000000000000000 ) ) ;
#317 = FACE_OUTER_BOUND ( 'NONE', #230, .T. ) ;
#318 = VECTOR ( 'NONE', #270, 1000.000000000000000 ) ;
#319 = DIRECTION ( 'NONE',  ( 0.000000000000000000, -0.000000000000000000, 1.000000000000000000 ) ) ;
#320 = DIRECTION ( 'NONE',  ( 2.220446049250313081E-16, 1.000000000000000000, 0.000000000000000000 ) ) ;
#321 = EDGE_CURVE ( 'NONE', #302, #67, #271, .T. ) ;
ENDSEC;
END-ISO-10303-21;
